Voyager Guitar Tabs?

Discussion in 'Album Chat' started by Figure8Guitar, May 3, 2019.

  1. SlowCrates

    SlowCrates Well-Known Member

    Joined:
    Apr 8, 2017
    Messages:
    4,010
    Likes Received:
    3,666
  2. Ajecks

    Ajecks Well-Known Member

    Joined:
    Apr 8, 2017
    Messages:
    147
    Likes Received:
    773
    Space and Time

    e------------------------------------10----------8-----------------------------------------------------------------------------------12--13----12---------------------------------------
    b-------------------------8----11---------11---------11--8----------------------------------------------------------10--13-----------------------13---------------------------------
    g--------------7----10---------------------------------------------9-----------------------------------------9--10-------------------------------------------14--10----9--------------
    d----------8------------------------------------------------------------10----8--------------------7--10---------------------------------------------------------------------10---------
    a---10-----------------------------------------------------------------------------10-----7--8----------------------------------------------------------------------------------------8---
    E-----------------------------------------------------------------------------------------------------------------------------------------------------------------------------------------------
    repeat


    Verse Chords (slide from 1/2 down when necessary)

    e-----10------8-------8-------X------
    b-----11-----11-----10-----10-----
    g-----10------9-------9------10-----
    d-----12-----10-----10-----10-----
    a-----10------8-------8-------8------
    E----------------------------------------

    Solo Later

    @MajinStylee I saw where you gonna figure this one out. Does this look close at all? I'm not very good with figuring out chords.
     
    #22 Ajecks, Jun 24, 2019
    Last edited: Jun 24, 2019
    logosteel and MajinStylee like this.
  3. crow

    crow Well-Known Member

    Joined:
    Apr 25, 2017
    Messages:
    398
    Likes Received:
    1,003
    yo where dem rolling through tabs at
     
    cuscus and MajinStylee like this.
  4. MajinStylee

    MajinStylee Well-Known Member

    Joined:
    Apr 8, 2017
    Messages:
    213
    Likes Received:
    733
    YEAP that's exactly what I have for the intro part (with one or two different but equivalent notes, but it sounds exactly the same)

    As for the verse part, this is what I have:
    [​IMG]
     
    cuscus and Ajecks like this.
  5. crow

    crow Well-Known Member

    Joined:
    Apr 25, 2017
    Messages:
    398
    Likes Received:
    1,003
    ok... since you chodes won't do rolling through for me...

    drop D:
    verse:

    e---------------------------------------------------------------------
    b--------------------------------------------------------------------
    g--------------------------------------------------------------------
    d----------------------0---------------------------0----------------
    a---------------------------------------------------------------------
    D-------0--3h5h7----5p3h5p0--3h5h7------5p3h5p0-

    now figure out da rest ya farts
     
    cuscus and MajinStylee like this.
  6. MajinStylee

    MajinStylee Well-Known Member

    Joined:
    Apr 8, 2017
    Messages:
    213
    Likes Received:
    733
    I got you, mr crow t robot sir. Ill do a quickie tab when I get home from work in the morning
     
  7. TonyRo

    TonyRo Member

    Joined:
    Mar 6, 2019
    Messages:
    24
    Likes Received:
    29
    I took a shot at the first 3 bass riffs on "What The?!" - sat painstakingly in front of my computer messing with the EQ and slowing it down to try and get the exact lines. Not sure about a few notes, welcome all feedback:

    upload_2019-6-29_12-46-36.png
     
    cuscus and MajinStylee like this.
  8. MajinStylee

    MajinStylee Well-Known Member

    Joined:
    Apr 8, 2017
    Messages:
    213
    Likes Received:
    733
    Okay, here's an abbreviated guitar tab for Rolling Through (tuning is Drop D) @crow

    Verse:
    [​IMG]

    Pre-chorus:
    [​IMG]

    Chorus:
    [​IMG]

    Riff for the last part of the song:
    [​IMG]

    Ending:
    [​IMG]
     
  9. crow

    crow Well-Known Member

    Joined:
    Apr 25, 2017
    Messages:
    398
    Likes Received:
    1,003
    you done it again @MajinStylee
    im having feldy send you some vegan cookies
     
  10. cuscus

    cuscus Active Member

    Joined:
    May 22, 2017
    Messages:
    112
    Likes Received:
    217
    You guys are my fucking heroes with these tabs
     
    parkerthegreat and MajinStylee like this.
  11. Figure8Guitar

    Figure8Guitar Well-Known Member

    Joined:
    Apr 9, 2017
    Messages:
    826
    Likes Received:
    3,043
    Itching to figure some of these out. I left for vacation the day this thing leaked and have not had a single chance to get a guitar in my hands since it came out. Though I'm pretty sure I've figured out every Feldy track just by listening to them...
     
    MajinStylee likes this.
  12. cuscus

    cuscus Active Member

    Joined:
    May 22, 2017
    Messages:
    112
    Likes Received:
    217
    Riff 1 and Riff 3 are perfect. The second riff is pretty hard for me to pick out the bass lines but that's just my shit ears. Awesome job!!!
     
    TonyRo likes this.
  13. TonyRo

    TonyRo Member

    Joined:
    Mar 6, 2019
    Messages:
    24
    Likes Received:
    29
    YASSSS the affirmation feels good! I've been meaning to finish this one up and publish it, just have to find the time. Thanks for checking it!
     
    cuscus likes this.
  14. TonyRo

    TonyRo Member

    Joined:
    Mar 6, 2019
    Messages:
    24
    Likes Received:
    29
    Here's a relatively final version of the bass line to "What The?!"

    upload_2019-7-6_1-38-29.png
     
    parkerthegreat and cuscus like this.
  15. TonyRo

    TonyRo Member

    Joined:
    Mar 6, 2019
    Messages:
    24
    Likes Received:
    29
    And the 2/3 or so of "Don't You Worry" - the rest will hopefully be finished tomorrow:

    upload_2019-7-6_1-46-16.png
     
  16. cuscus

    cuscus Active Member

    Joined:
    May 22, 2017
    Messages:
    112
    Likes Received:
    217
    Haven't had a chance to check these out yet. I'll have some time later. Good work!
     
    TonyRo likes this.
  17. Figure8Guitar

    Figure8Guitar Well-Known Member

    Joined:
    Apr 9, 2017
    Messages:
    826
    Likes Received:
    3,043


    You guys seem to have Space and Time covered for the most part, but here is the guitar solo if that helps you guys reference (ignore that first run, I was just fucking around because I can't hear what he's doing). I think I have most of it pretty close, so I can at least provide tabs for how I play it.
     
  18. Hewzee

    Hewzee Well-Known Member

    Joined:
    Apr 9, 2017
    Messages:
    703
    Likes Received:
    2,155
    Very nice man. I really want to get to that level. Gotta practice more than I do though. Hard for me to incorporate my pinkie finger for solos too which hinders everything.
     
  19. eck

    eck Well-Known Member

    Joined:
    Apr 8, 2017
    Messages:
    249
    Likes Received:
    1,296
    Nice work! I started tabbing up the solo, but I need to find some time to finish it up. We can compare notes.

    And I can't really figure out that first run either, there's just too much going on in the mix to pick out the notes. What you did there is fine in my book :)
     
    Hewzee likes this.
  20. Figure8Guitar

    Figure8Guitar Well-Known Member

    Joined:
    Apr 9, 2017
    Messages:
    826
    Likes Received:
    3,043
    Right, and since it’s a solo it’s mixed down the middle and you can’t really isolate it the same as the other guitar parts. I even slowed it way down and it’s still just a jumbled mess of notes haha. Let me know when you get it tabbed out and I’ll compare. Mine sounds close but it was just a quick try at it the other night so I’m sure the accuracy could be fine tuned.
     

Share This Page